Let Me Down Easy


Intro:
    A        Dm      A        Dm
E--5------5------5------5--------|
B---5---5--6---6--5---5--6---6---|
G----6-6----7-7----6-6----7-7----|
D-----7------7------7------7-----|
A--------------------------------|
E--------------------------------|

Dm          Am    Dm                      Am          Dm
Let me down easy     though your love for me is gone

Dm             Am        Dm                         Am           Dm
Let me down so easy baby     since you feel to stay isn't wrong

             F    E                  F    E  [fill 1--------------]
But it's all over   but the last goodbye,    let me down easy, hmm

Fill 1:
                  Am      Dm       Am      Dm
E------------5------5------5------5--------|
B-------------5---5--6---6--5---5--6---6---|
G--------------5-5----7-7----5-5----7-7----|
D---------------7------7------7------7-----|
A------------------------------------------|
E---0-0-3-4--------------------------------|


When you pass me by, say hello once in a while
When you pass me by, does it hurt so much to smile ?
                                            [fill 2 -------------]
But it's all over but the last goodbye, let me down easy baby

Fill 2:
                  Am      Dm       Am      A
E------------5------5------5------5---------|
B-------------5---5--6---6--5---5--5---5----|
G--------------5-5----7-7----5-5----6-6-----|
D---------------7------7------7------7------|
A-------------------------------------------|
E---0-0-3-4---------------------------------|

Guitar solo:  Dm   Am   Dm   Am   Dm   Am   E

    Am     Dm         Am     Dm
I remember     at the start

          Am            Dm               Am           Dm
It was so nice to think    that we never had to part


              F   E                    F   E  [fill 1--------------------------]
But it's all over     but the last goodbye,    let me down easy, hmm hmm hmm hmm

Dm             Am
Let me down so easy baby
Let me down so easy baby
Let me down down, let me down so easy baby, oh oh oh
I don't want anyone of your love, baby
Let me down down, let me down so easy baby, oh oh

Dm             A
Let me down so easy

Smiling Phases