Gimme Some Lovin'


N.C. (with bass)
|----------------------|---------------------| play x4
|----------------------|---------------------|
|----------------------|---------------------|
|--5--5--5--5--5-------|--5--5--5--5--5------|
|----------------------|---------------------|
|------------------3---|------------------3--|

   G7     C/G G7  C/G G
|--------------------------| play x2
|--6------5---6---5---3----|
|--7------5---7---5---3^4--| Organ part arranged for guitar
|--5------5---5---5---5----|
|--------------------------|
|--------------------------|

   G  C/G    G       C/G
|-----------------------|
|--3--5------3--3----5--|
|--4--5------4--4----5--|
|--5--5------5--5----5--|
|-----------------------|
|-----------------------|

   Hey!
                G        C/G           G             C/G
1. Well my temp'rature's risin' and my feet left the floor
              |-----------------------------------------|
              |-3--------5-------------3----3--------5--|
              |-4--------5-------------4----4--------5--|
              |-5--------5-------------5----5--------5--|
              |-----------------------------------------|
              |-----------------------------------------|
   G        C/G                         G            C/G
   Crazy people knockin' 'cause they're wantin' some more
   G       C/G            G                C/G
   Let me in baby I don't know what you've got
             G           C/G         G         C/G
   But you'd better take it easy this place is hot and I'm

   G                    Bb         C                 Eb
        So glad we made it            so glad we made it  you gotta

|--3------------3---------------|---------------------------------------|
|--3------------3-------3----3--|--5----------5------8----8-------8--8--|
|--4------------4-------3----3--|--5----------5------8----8-------8--8--|
|--5------------5-------3----3--|--5----------5------8----8-------8--8--|
|--5------------5-------1----1--|--3----------3------6----6-------6--6--|
|--3------------3---------------|---------------------------------------|


   G                C/G                G                C/G
       gimme some-a lovin'                 gimme some-a lovin'
|--3---3--3-------------------------|--3---3--3--------------------------|
|--3---3--3---------5---------------|--3---3--3---------5----------------|
|--4---4--4---------5---------------|--4---4--4---------5----------------|
|--5---5--5---------5---------------|--5---5--5---------5----------------|
|--5---5--5---------3---------------|--5---5--5---------3----------------|
|--3---3--3---------3-------0--1--2-|--3---3--3---------3--------0--1--2-|

   G                C/G                      N.C.
       Gimme some-a lovin'  ev - er-y        day
|--3---3--3-------------------------------|--------------------|
|--3---3--3---------5---------------------|--------------------|
|--4---4--4---------5---------------------|--------------------|
|--5---5--5---------5---------------------|--5--5--5--5--5-----|
|--5---5--5---------3---------------------|--------------------|
|--3---3--3---------3------------0--1--2--|-----------------3--|


2.Hey!
  Well I feel so good, everything is sounding hot
  You'd better take it easy 'cause the place is on fire
  It's been a hard day and I had so much to do
  We made it baby and it happened to you

chorus

3.Well I feel so good, everything is getting high
  You'd better take it easy 'cause the place is on fire
  It's been a hard day and nothing went too good
  Now I'm gonna relax, baby, everybody should

Chorus

A bientôt,
Christian.

Smiling Phases